CifrAdventista.com

Celebra SP – Em Meu Lugar

Intro: | F Dm7 | G D7 | F Am7 | G | G |

Riff Intro.:

    F       Dm7           G        D7             F        Am7     G

e|--8--7---------|--------------|--------------|--8--7-----------------------|
B|--------8------|--8-----------|--------------|--------8-----8--8/10--8-----|
G|-----------9---|-----9--7--9--|--7-----------|-----------9-----------------|
D|---------------|--------------|-----10--7----|-----------------------------|
A|---------------|--------------|--------------|-----------------------------|
E|---------------|--------------|--------------|-----------------------------|


              F           Dm7
Deus é nosso guia pelo temporal,
          Am7           C
Ele já venceu. sim, já venceu
           F            Dm7                 C
Nosso desafios, nossas aflições,  Ele está aqui

          F             Dm7                Am                C
Leva o pecado pra longe de mim,  Ele já venceu. Sim, Ele já venceu
             F            Dm7                 F     C
Não teremos medo somos do Senhor,  Ele está aqui

Coro:
       G              F          C            Am7
Vou viver, eu vou cantar do Teu amor tão singular
              Bb           F             C  C9  Csus4
Que habita em mim, se revelou em meu lugar
       G              F          C          Am7
Vou viver, eu vou cantar da tua graça vou falar 
        Bb                F           Am7  F  G  Dm7  F Am7 Bb
Tu és o Deus que se entregou em meu lugar  (Riff 2)

Riff 2:

e|--8--7--------|--------------|--------------|------------------8--12--10--|
B|--------8-----|--8-----------|--------------|--------10--8--8-------------|
G|-----------9--|-----9--7--9--|--7-----------|--9/10-----------------------|
D|--------------|--------------|-----10--7----|-----------------------------|
A|--------------|--------------|--------------|-----------------------------|
E|--------------|--------------|--------------|-----------------------------|

      
              F   Dm7     G
Deus é nosso guia pelo temporal           
          Am7       F       C
Ele já venceu. sim, Ele já venceu
C/E         F    Dm7      G                  C
Nossos desafios, nossas aflições,  Ele está aqui

          F   Dm7       G
Leva o pecado pra longe de mim
C/E       Am        F       C
Ele já venceu. Sim, Ele já venceu
C/E          F   Dm7       G                F   C
Não teremos medo somos do Senhor, Ele está aqui

Coro:
       G              F          C             Am7
Vou viver, eu vou cantar do Teu amor tão singular
              Bb           F            C  C9  Csus4
Que habita em mim, se revelou em meu lugar
      G               F           C         Am7
Vou viver, eu vou cantar da tua graça vou falar 
        Bb                F           Am7  F  G  D  F  G
Tu és o Deus que se entregou em meu lugar

Riff 3

e|--8--7--------|--------------|--------------|------------------12--13--13b|
B|--------8-----|--8-----------|--------------|--------10--8/13-------------|
G|-----------9--|-----9--7--7b-|--7-----------|--9/10-----------------------|
D|--------------|--------------|-----10--7----|-----------------------------|
A|--------------|--------------|--------------|-----------------------------|
E|--------------|--------------|--------------|-----------------------------|


Ponte: 
           F                 G
Tu está conosco derrotando trevas 
              Am7               C/E
Trazendo Teu reino, preço do calvário
              F               G
No Teu Santo nome somos invencíveis
         Am7       F       C
Nós vamos anunciar,  anunciar  


           F                 G
Tu está conosco derrotando trevas 
              Am7               C/E
Trazendo teu reino, preço do calvário
              F         Am    G
No teu santo nome somos invencíveis
         Am7       F       C
Nós vamos anunciar,  anunciar  

Coro:

       G              F          C             Am7
Vou viver, eu vou cantar do Teu amor tão singular
              Bb           F            (Riff 4)
Que habita em mim, se revelou em meu lugar

Riff 4:

e|--8--7--------|--------------|--------------|
B|--------8-----|--8-----------|--------------|
G|-----------9--|-----9--7--7--|--7-----------|
D|--------------|--------------|-----10--7----|
A|--------------|--------------|--------------|
E|--------------|--------------|--------------|


       G              F           C         Am7
Vou viver, eu vou cantar da tua graça vou falar 
        Bb                F       |  Am7  F | G Dm7 | Am7 F | G Am |
Tu és o Deus que se entregou em meu lugar

| F Dm7 | G D7 | F Am7 | Eb | Bb | C | C |


Tablaturas adaptadas de vídeo aula de Oseias Ponce.
%d blogueiros gostam disto: