CifrAdventista.com

Os Arrais – Até Ele Chegar


TOM:  F#
Capo: 4ª casa
Intro: Bmaj7/D#     C#5        F#5        F#            Riff

Forma dos acordes
     Bmaj7/D#     C#5        F#5        F#            Riff
d |----4------|----4-----|----4-----|----4-----|------------------|
a |----4------|----4-----|----4-----|----4-----|------------------|
f#|----16-----|----14----|----14----|----11----|------------------|
D |----13-----|----11----|----4-----|----4-----|------------------|
A |----14-----|----11----|----4-----|----4-----|----11/13--11--9--|
D |----13-----|----11----|----4-----|----4-----|------------------| 

 G#madd11    F#maj7/A#     B        C#sus4       E        F#/A#
d |----4------|----4-----|----4-----|----4-----|----4-----|----4----|
a |----4------|----4-----|----4-----|----4-----|----4-----|----4----|
f#|----5------|----4-----|----9-----|----11----|----14----|----7----|
D |----4------|----4-----|----4-----|----4-----|----4-----|----4----|
A |----6------|----8-----|----9-----|----11----|----14----|----4----|
D |----6------|----8-----|----9-----|----11----|----14----|----8----|


Bmaj7/D#    

C#5            F#5      F#  (Riff) 
  O sol nasce no leste

Bmaj7/D#    

C#5            F#5      F#  (Riff)
  Me levanto pra andar

Bmaj7/D#    

C#5            F#5      F#  (Riff)
  Na esperança que Ele irá me encontrar



G#madd11          F#maj7/A#   
  Caminho até eu avistar
B               C#sus4 
  Aonde o céu encontra o mar
G#madd11
  E ali, vou esperar
C#sus4
  Até Ele chegar
G#madd11            F#maj7/A# 
  Levanto minha oração, 
B                C#sus4      G#madd11
  o meu louvor e minha gratidão
              C#sus4 
  Vou esperar até Ele chegar



Bmaj7/D#    

C#5            F#5      F#  (Riff) 
  Nesta trilha sozinho, 
Bmaj7/D#    

C#5            F#5      F#  (Riff)   
  eu converso com Deus
Bmaj7/D#    

C#5            F#5      F#  (Riff)   
  Como um Pai e seu filho
Bmaj7/D#    

C#5            F#5      F#  
  Confiando sem ver


G#madd11          F#maj7/A#   
  E nos recantos de quem sou
B               C#sus4      G#madd11
  Nos corredores do meu coração
                C#sus4
  Vou esperar,  até Ele chegar
G#madd11          F#maj7/A#  B          C#sus4
  E se a distância for além daquilo que antecipei
E                   C#sus4      B                F#/A#        G#madd11 
  Eu sigo em frente até chegar ao Deus que esteve aqui sem eu notar
C#sus4
  E lá eu vou ficar



  Bmaj7/D#    

C#5            F#5      F#  (Riff) 
  O sol nasce no leste

Bmaj7/D#    

C#5            F#5      F#  (Riff)
  Me levanto pra andar

Bmaj7/D#    

C#5            F#5      F#  (Riff)
  Na esperança que Ele ...



%d blogueiros gostam disto: